  0
SECTION
  2
HEADER
  9
$ACADVER
  1
AC1009
  9
$DWGCODEPAGE
  3
ansi_1252
  9
$INSBASE
 10
0.0
 20
0.0
 30
0.0
  9
$EXTMIN
 10
-1.807087
 20
-1.80315
 30
0.0
  9
$EXTMAX
 10
14.358268
 20
24.751969
 30
0.0
  9
$LIMMIN
 10
-55.90135
 20
-50.702531
  9
$LIMMAX
 10
68.452531
 20
73.65135
  9
$ORTHOMODE
 70
     0
  9
$REGENMODE
 70
     1
  9
$FILLMODE
 70
     1
  9
$QTEXTMODE
 70
     0
  9
$MIRRTEXT
 70
     0
  9
$DRAGMODE
 70
     2
  9
$LTSCALE
 40
1.0
  9
$OSMODE
 70
    37
  9
$ATTMODE
 70
     1
  9
$TEXTSIZE
 40
9.84252
  9
$TRACEWID
 40
0.05
  9
$TEXTSTYLE
  7
STANDARD
  9
$CLAYER
  8
LEVEL_1
  9
$CELTYPE
  6
CONTINUOUS
  9
$CECOLOR
 62
     7
  9
$DIMSCALE
 40
1.0
  9
$DIMASZ
 40
9.84252
  9
$DIMEXO
 40
4.92126
  9
$DIMDLI
 40
0.0
  9
$DIMRND
 40
0.0
  9
$DIMDLE
 40
0.0
  9
$DIMEXE
 40
4.92126
  9
$DIMTP
 40
0.0
  9
$DIMTM
 40
0.0
  9
$DIMTXT
 40
9.84252
  9
$DIMCEN
 40
0.082677
  9
$DIMTSZ
 40
0.0
  9
$DIMTOL
 70
     0
  9
$DIMLIM
 70
     0
  9
$DIMTIH
 70
     0
  9
$DIMTOH
 70
     0
  9
$DIMSE1
 70
     0
  9
$DIMSE2
 70
     0
  9
$DIMTAD
 70
     1
  9
$DIMZIN
 70
    11
  9
$DIMBLK
  1

  9
$DIMASO
 70
     1
  9
$DIMSHO
 70
     1
  9
$DIMPOST
  1

  9
$DIMAPOST
  1

  9
$DIMALT
 70
     0
  9
$DIMALTD
 70
     4
  9
$DIMALTF
 40
0.0254
  9
$DIMLFAC
 40
1.0
  9
$DIMTOFL
 70
     0
  9
$DIMTVP
 40
0.0
  9
$DIMTIX
 70
     0
  9
$DIMSOXD
 70
     0
  9
$DIMSAH
 70
     0
  9
$DIMBLK1
  1

  9
$DIMBLK2
  1

  9
$DIMSTYLE
  2
STANDARD
  9
$DIMCLRD
 70
     0
  9
$DIMCLRE
 70
     0
  9
$DIMCLRT
 70
     0
  9
$DIMTFAC
 40
1.0
  9
$DIMGAP
 40
4.92126
  9
$LUNITS
 70
     2
  9
$LUPREC
 70
     4
  9
$SKETCHINC
 40
0.1
  9
$FILLETRAD
 40
0.0
  9
$AUNITS
 70
     0
  9
$AUPREC
 70
     4
  9
$MENU
  1
.
  9
$ELEVATION
 40
0.0
  9
$PELEVATION
 40
0.0
  9
$THICKNESS
 40
0.0
  9
$LIMCHECK
 70
     0
  9
$CHAMFERA
 40
0.0
  9
$CHAMFERB
 40
0.0
  9
$SKPOLY
 70
     0
  9
$TDCREATE
 40
2455130.632135324
  9
$TDUPDATE
 40
2455130.632135498
  9
$TDINDWG
 40
0.0
  9
$TDUSRTIMER
 40
0.0006630093
  9
$USRTIMER
 70
     1
  9
$ANGBASE
 50
0.0
  9
$ANGDIR
 70
     0
  9
$PDMODE
 70
     0
  9
$PDSIZE
 40
0.0
  9
$PLINEWID
 40
0.0
  9
$COORDS
 70
     1
  9
$SPLFRAME
 70
     0
  9
$SPLINETYPE
 70
     6
  9
$SPLINESEGS
 70
     8
  9
$ATTDIA
 70
     0
  9
$ATTREQ
 70
     1
  9
$HANDLING
 70
     1
  9
$HANDSEED
  5
AC6
  9
$SURFTAB1
 70
     6
  9
$SURFTAB2
 70
     6
  9
$SURFTYPE
 70
     6
  9
$SURFU
 70
     6
  9
$SURFV
 70
     6
  9
$UCSNAME
  2

  9
$UCSORG
 10
0.0
 20
0.0
 30
0.0
  9
$UCSXDIR
 10
1.0
 20
0.0
 30
0.0
  9
$UCSYDIR
 10
0.0
 20
1.0
 30
0.0
  9
$PUCSNAME
  2

  9
$PUCSORG
 10
0.0
 20
0.0
 30
0.0
  9
$PUCSXDIR
 10
1.0
 20
0.0
 30
0.0
  9
$PUCSYDIR
 10
0.0
 20
1.0
 30
0.0
  9
$USERI1
 70
     0
  9
$USERI2
 70
     0
  9
$USERI3
 70
     0
  9
$USERI4
 70
     0
  9
$USERI5
 70
     0
  9
$USERR1
 40
0.0
  9
$USERR2
 40
0.0
  9
$USERR3
 40
0.0
  9
$USERR4
 40
0.0
  9
$USERR5
 40
0.0
  9
$WORLDVIEW
 70
     1
  9
$SHADEDGE
 70
     3
  9
$SHADEDIF
 70
    70
  9
$TILEMODE
 70
     1
  9
$MAXACTVP
 70
    64
  9
$PLIMCHECK
 70
     0
  9
$PEXTMIN
 10
1.049744
 20
0.799667
 30
-0.001526
  9
$PEXTMAX
 10
9.450623
 20
7.200577
 30
0.0
  9
$PLIMMIN
 10
-0.25
 20
-0.25
  9
$PLIMMAX
 10
10.75
 20
8.25
  9
$UNITMODE
 70
     0
  9
$VISRETAIN
 70
     1
  9
$PLINEGEN
 70
     0
  9
$PSLTSCALE
 70
     0
  0
ENDSEC
  0
SECTION
  2
TABLES
  0
TABLE
  2
VPORT
 70
     2
  0
VPORT
  2
*ACTIVE
 70
     0
 10
0.0
 20
0.0
 11
1.0
 21
1.0
 12
2.665354
 22
-0.068898
 13
0.0
 23
0.0
 14
3.937008
 24
3.937008
 15
0.055118
 25
0.055118
 16
0.0
 26
0.0
 36
1.0
 17
0.0
 27
0.0
 37
0.0
 40
5.767717
 41
2.173379
 42
50.0
 43
57.677165
 44
-57.677165
 50
0.0
 51
0.0
 71
    16
 72
   100
 73
     1
 74
     2
 75
     0
 76
     1
 77
     0
 78
     1
  0
ENDTAB
  0
TABLE
  2
LTYPE
 70
     1
  0
LTYPE
  2
CONTINUOUS
 70
     0
  3
Solid line
 72
    65
 73
     0
 40
0.0
  0
ENDTAB
  0
TABLE
  2
LAYER
 70
    64
  0
LAYER
  2
0
 70
     0
 62
     7
  6
CONTINUOUS
  0
LAYER
  2
LEVEL_1
 70
     0
 62
     7
  6
CONTINUOUS
  0
LAYER
  2
LEVEL_2
 70
     0
 62
     7
  6
CONTINUOUS
  0
LAYER
  2
LEVEL_3
 70
     0
 62
     7
  6
CONTINUOUS
  0
LAYER
  2
LEVEL_4
 70
     0
 62
     7
  6
CONTINUOUS
  0
LAYER
  2
LEVEL_5
 70
     0
 62
     7
  6
CONTINUOUS
  0
LAYER
  2
LEVEL_6
 70
     0
 62
     7
  6
CONTINUOUS
  0
LAYER
  2
LEVEL_7
 70
     0
 62
     7
  6
CONTINUOUS
  0
LAYER
  2
LEVEL_8
 70
     0
 62
     7
  6
CONTINUOUS
  0
LAYER
  2
LEVEL_9
 70
     0
 62
     7
  6
CONTINUOUS
  0
LAYER
  2
LEVEL_10
 70
     0
 62
     7
  6
CONTINUOUS
  0
LAYER
  2
LEVEL_11
 70
     0
 62
     7
  6
CONTINUOUS
  0
LAYER
  2
LEVEL_12
 70
     0
 62
     7
  6
CONTINUOUS
  0
LAYER
  2
LEVEL_13
 70
     0
 62
     7
  6
CONTINUOUS
  0
LAYER
  2
LEVEL_14
 70
     0
 62
     7
  6
CONTINUOUS
  0
LAYER
  2
LEVEL_15
 70
     0
 62
     7
  6
CONTINUOUS
  0
LAYER
  2
LEVEL_16
 70
     0
 62
     7
  6
CONTINUOUS
  0
LAYER
  2
LEVEL_17
 70
     0
 62
     7
  6
CONTINUOUS
  0
LAYER
  2
LEVEL_18
 70
     0
 62
     7
  6
CONTINUOUS
  0
LAYER
  2
LEVEL_19
 70
     0
 62
     7
  6
CONTINUOUS
  0
LAYER
  2
LEVEL_20
 70
     0
 62
     7
  6
CONTINUOUS
  0
LAYER
  2
LEVEL_21
 70
     0
 62
     7
  6
CONTINUOUS
  0
LAYER
  2
LEVEL_22
 70
     0
 62
     7
  6
CONTINUOUS
  0
LAYER
  2
LEVEL_23
 70
     0
 62
     7
  6
CONTINUOUS
  0
LAYER
  2
LEVEL_24
 70
     0
 62
     7
  6
CONTINUOUS
  0
LAYER
  2
LEVEL_25
 70
     0
 62
     7
  6
CONTINUOUS
  0
LAYER
  2
LEVEL_26
 70
     0
 62
     7
  6
CONTINUOUS
  0
LAYER
  2
LEVEL_27
 70
     0
 62
     7
  6
CONTINUOUS
  0
LAYER
  2
LEVEL_28
 70
     0
 62
     7
  6
CONTINUOUS
  0
LAYER
  2
LEVEL_29
 70
     0
 62
     7
  6
CONTINUOUS
  0
LAYER
  2
LEVEL_30
 70
     0
 62
     7
  6
CONTINUOUS
  0
LAYER
  2
LEVEL_31
 70
     0
 62
     7
  6
CONTINUOUS
  0
LAYER
  2
LEVEL_32
 70
     0
 62
     7
  6
CONTINUOUS
  0
LAYER
  2
LEVEL_33
 70
     0
 62
     7
  6
CONTINUOUS
  0
LAYER
  2
LEVEL_34
 70
     0
 62
     7
  6
CONTINUOUS
  0
LAYER
  2
LEVEL_35
 70
     0
 62
     7
  6
CONTINUOUS
  0
LAYER
  2
LEVEL_36
 70
     0
 62
     7
  6
CONTINUOUS
  0
LAYER
  2
LEVEL_37
 70
     0
 62
     7
  6
CONTINUOUS
  0
LAYER
  2
LEVEL_38
 70
     0
 62
     7
  6
CONTINUOUS
  0
LAYER
  2
LEVEL_39
 70
     0
 62
     7
  6
CONTINUOUS
  0
LAYER
  2
LEVEL_40
 70
     0
 62
     7
  6
CONTINUOUS
  0
LAYER
  2
LEVEL_41
 70
     0
 62
     7
  6
CONTINUOUS
  0
LAYER
  2
LEVEL_42
 70
     0
 62
     7
  6
CONTINUOUS
  0
LAYER
  2
LEVEL_43
 70
     0
 62
     7
  6
CONTINUOUS
  0
LAYER
  2
LEVEL_44
 70
     0
 62
     7
  6
CONTINUOUS
  0
LAYER
  2
LEVEL_45
 70
     0
 62
     7
  6
CONTINUOUS
  0
LAYER
  2
LEVEL_46
 70
     0
 62
     7
  6
CONTINUOUS
  0
LAYER
  2
LEVEL_47
 70
     0
 62
     7
  6
CONTINUOUS
  0
LAYER
  2
LEVEL_48
 70
     0
 62
     7
  6
CONTINUOUS
  0
LAYER
  2
LEVEL_49
 70
     0
 62
     7
  6
CONTINUOUS
  0
LAYER
  2
LEVEL_50
 70
     0
 62
     7
  6
CONTINUOUS
  0
LAYER
  2
LEVEL_51
 70
     0
 62
     7
  6
CONTINUOUS
  0
LAYER
  2
LEVEL_52
 70
     0
 62
     7
  6
CONTINUOUS
  0
LAYER
  2
LEVEL_53
 70
     0
 62
     7
  6
CONTINUOUS
  0
LAYER
  2
LEVEL_54
 70
     0
 62
     7
  6
CONTINUOUS
  0
LAYER
  2
LEVEL_55
 70
     0
 62
     7
  6
CONTINUOUS
  0
LAYER
  2
LEVEL_56
 70
     0
 62
     7
  6
CONTINUOUS
  0
LAYER
  2
LEVEL_57
 70
     0
 62
     7
  6
CONTINUOUS
  0
LAYER
  2
LEVEL_58
 70
     0
 62
     7
  6
CONTINUOUS
  0
LAYER
  2
LEVEL_59
 70
     0
 62
     7
  6
CONTINUOUS
  0
LAYER
  2
LEVEL_60
 70
     0
 62
     7
  6
CONTINUOUS
  0
LAYER
  2
LEVEL_61
 70
     0
 62
     7
  6
CONTINUOUS
  0
LAYER
  2
LEVEL_62
 70
     0
 62
     7
  6
CONTINUOUS
  0
LAYER
  2
LEVEL_63
 70
     0
 62
     7
  6
CONTINUOUS
  0
ENDTAB
  0
TABLE
  2
STYLE
 70
     2
  0
STYLE
  2
STANDARD
 70
     0
 40
0.0
 41
1.0
 50
0.0
 71
     0
 42
9.84252
  3
txt
  4

  0
STYLE
  2
STYLE-STANDARD
 70
     0
 40
0.0
 41
1.0
 50
0.0
 71
     0
 42
0.2
  3
STANDARD.shx
  4

  0
ENDTAB
  0
TABLE
  2
VIEW
 70
     0
  0
ENDTAB
  0
TABLE
  2
UCS
 70
     0
  0
ENDTAB
  0
TABLE
  2
APPID
 70
     7
  0
APPID
  2
ACAD
 70
     0
  0
APPID
  2
ACAD_PSEXT
 70
     0
  0
APPID
  2
AVE_ENTITY_MATERIAL
 70
     0
  0
APPID
  2
AVE_MATERIAL
 70
     0
  0
APPID
  2
AVE_FINISH
 70
     0
  0
APPID
  2
AVE_GLOBAL
 70
     0
  0
APPID
  2
AVE_RENDER
 70
     0
  0
ENDTAB
  0
TABLE
  2
DIMSTYLE
 70
     1
  0
DIMSTYLE
  2
STANDARD
 70
     0
  3

  4

  5

  6

  7

 40
1.0
 41
0.18
 42
0.0625
 43
0.38
 44
0.18
 45
0.0
 46
0.0
 47
0.0
 48
0.0
140
0.18
141
0.09
142
0.0
143
25.4
144
1.0
145
0.0
146
1.0
147
0.09
 71
     0
 72
     0
 73
     1
 74
     1
 75
     0
 76
     0
 77
     0
 78
     0
170
     0
171
     2
172
     0
173
     0
174
     0
175
     0
176
     0
177
     0
178
     0
  0
ENDTAB
  0
ENDSEC
  0
SECTION
  2
BLOCKS
  0
BLOCK
  8
0
  2
$MODEL_SPACE
 70
     0
 10
0.0
 20
0.0
 30
0.0
  3
$MODEL_SPACE
  1

  0
ENDBLK
  5
A8F
  8
0
  0
BLOCK
 67
     1
  8
0
  2
$PAPER_SPACE
 70
     0
 10
0.0
 20
0.0
 30
0.0
  3
$PAPER_SPACE
  1

  0
ENDBLK
  5
A94
 67
     1
  8
0
  0
BLOCK
  8
0
  2
SC4006
 70
     0
 10
0.0
 20
0.0
 30
0.0
  3
SC4006
  1

  0
POINT
  5
A71
  8
0
  6
BYBLOCK
 62
     0
 10
0.0
 20
0.0
 30
0.0
  0
ENDBLK
  5
AA5
  8
0
  0
BLOCK
  8
0
  2
SC2730
 70
     0
 10
0.0
 20
0.0
 30
0.0
  3
SC2730
  1

  0
INSERT
  5
A0E
  8
LEVEL_1
  6
CONTINUOUS
 62
     7
  2
SC4006
 10
0.0
 20
0.0
 30
0.0
  0
ENDBLK
  5
AA7
  8
0
  0
BLOCK
  8
0
  2
TERMIN
 70
     0
 10
0.0
 20
0.0
 30
0.0
  3
TERMIN
  1

  0
LINE
  5
A74
  8
LEVEL_1
  6
CONTINUOUS
 62
     7
 10
0.0
 20
0.0
 30
0.0
 11
-1.0
 21
0.0
 31
0.0
  0
LINE
  5
A75
  8
LEVEL_1
  6
CONTINUOUS
 62
     7
 10
0.0
 20
0.0
 30
0.0
 11
-1.0
 21
0.25
 31
0.0
  0
LINE
  5
A76
  8
LEVEL_1
  6
CONTINUOUS
 62
     7
 10
0.0
 20
0.0
 30
0.0
 11
-1.0
 21
-0.25
 31
0.0
  0
ENDBLK
  5
AA9
  8
0
  0
BLOCK
  8
0
  2
AVE_RENDER
 70
     0
 10
0.0
 20
0.0
 30
0.0
  3
AVE_RENDER
  1
AVE_RENDER
  0
ENDBLK
  5
AB1
  8
0
  0
ENDSEC
  0
SECTION
  2
ENTITIES
  0
INSERT
  5
AB2
  8
0
 62
     1
  2
AVE_RENDER
 10
0.0
 20
0.0
 30
0.0
1001
AVE_RENDER
1002
{
1070
     7
1000
Pref
1070
    50
1070
    20
1070
     1
1070
     0
1000

1070
    10
1070
     1
1070
    10
1040
1.0
1070
     1
1040
0.7
1040
1.0
1040
0.2
1040
2.0
1010
-1.0
1020
-1.0
1030
-1.0
1020
-1.0
1030
-1.0
1040
0.3
1070
    49
1070
     0
1070
     0
1010
1.0
1020
1.0
1030
1.0
1020
1.0
1030
1.0
1040
45.0
1070
     1
1070
     0
1000
WCS
1040
0.0
1070
     0
1040
10.0
1002
}
  0
INSERT
  5
AB3
  8
0
 62
     3
  2
AVE_RENDER
 10
0.0
 20
0.0
 30
0.0
1001
AVE_RENDER
1002
{
1070
     0
1000
Full Opt
1070
     0
1070
     1
1070
     1
1070
     1
1070
     0
1070
     0
1070
     0
1070
     1
1070
     1
1040
0.0001
1040
0.0001
1002
}
  0
INSERT
  5
AB4
  8
0
 62
     4
  2
AVE_RENDER
 10
0.0
 20
0.0
 30
0.0
1001
AVE_RENDER
1002
{
1070
     0
1000
Quick Opt
1070
     0
1070
     1
1070
     1
1070
     1
1070
     0
1070
     0
1070
     1
1002
}
  0
INSERT
  5
AB5
  8
0
 62
     5
  2
AVE_RENDER
 10
0.0
 20
0.0
 30
0.0
1001
AVE_RENDER
1002
{
1070
     1
1000
Scanl Opt
1070
     2
1070
     0
1070
     2
1040
2.0
1040
4.0
1070
     0
1070
     1
1070
     0
1040
0.03
1002
}
  0
INSERT
  5
AB6
  8
0
 62
     6
  2
AVE_RENDER
 10
0.0
 20
0.0
 30
0.0
1001
AVE_RENDER
1002
{
1070
     2
1000
Raytr Opt
1070
     2
1070
     0
1070
     2
1040
2.0
1040
4.0
1070
     0
1070
     1
1070
     1
1040
0.03
1070
     3
1040
0.03
1002
}
  0
INSERT
  5
AB7
  8
0
 62
     7
  2
AVE_RENDER
 10
0.0
 20
0.0
 30
0.0
1001
AVE_RENDER
1002
{
1070
     0
1000
RFile Opt
1070
     1
1070
   640
1070
   480
1070
 10000
1070
     1
1070
     8
1070
     8
1070
     0
1070
     0
1070
     0
1070
     0
1070
     0
1070
     0
1070
     0
1002
}
  0
INSERT
  5
AB8
  8
0
 62
     8
  2
AVE_RENDER
 10
0.0
 20
0.0
 30
0.0
1001
AVE_RENDER
1002
{
1070
     0
1000
Fog Opt
1070
     0
1070
     0
1040
0.0
1040
1.0
1040
0.0
1040
1.0
1010
0.498039
1020
0.498039
1030
0.498039
1020
0.498039
1030
0.498039
1002
}
  0
INSERT
  5
AB9
  8
0
 62
     9
  2
AVE_RENDER
 10
0.0
 20
0.0
 30
0.0
1001
AVE_RENDER
1002
{
1070
     0
1000
BG Opt
1070
     0
1070
     1
1010
0.0
1020
0.0
1030
0.0
1020
0.0
1030
0.0
1010
1.0
1020
0.0
1030
0.0
1020
0.0
1030
0.0
1010
0.0
1020
1.0
1030
0.0
1020
1.0
1030
0.0
1010
0.0
1020
0.0
1030
1.0
1020
0.0
1030
1.0
1040
0.5
1040
0.33
1040
0.0
1000

1070
     1
1000

1070
     0
1070
     1
1040
0.0
1040
0.0
1040
0.0
1040
0.0
1070
     1
1002
}
  0
LINE
  5
8D
  8
LEVEL_1
  6
CONTINUOUS
 62
     7
 10
-0.701018
 20
-1.32751
 30
0.0
 11
-0.199848
 21
-0.459459
 31
0.0
  0
LINE
  5
8E
  8
LEVEL_1
  6
CONTINUOUS
 62
     7
 10
-0.306321
 20
0.397377
 30
0.0
 11
-0.807705
 21
1.265798
 31
0.0
  0
LINE
  5
8F
  8
LEVEL_1
  6
CONTINUOUS
 62
     7
 10
-0.199848
 20
0.459586
 30
0.0
 11
-0.701018
 21
1.327638
 31
0.0
  0
LINE
  5
86
  8
LEVEL_1
  6
CONTINUOUS
 62
     7
 10
0.493725
 20
-0.059023
 30
0.0
 11
1.496064
 21
-0.059023
 31
0.0
  0
LINE
  5
84
  8
LEVEL_1
  6
CONTINUOUS
 62
     7
 10
0.493086
 20
0.06429
 30
0.0
 11
1.495852
 21
0.06429
 31
0.0
  0
LINE
  5
AA
  8
LEVEL_1
  6
CONTINUOUS
 62
     7
 10
14.354243
 20
24.748967
 30
0.0
 11
14.35468
 21
24.749724
 31
0.0
  0
LINE
  5
B2
  8
LEVEL_1
  6
CONTINUOUS
 62
     7
 10
-0.807705
 20
-1.26567
 30
0.0
 11
-0.306322
 21
-0.397249
 31
0.0
  0
ARC
  5
CC
  8
LEVEL_1
  6
CONTINUOUS
 62
     7
 10
-0.002772
 20
0.000064
 30
0.0
 40
0.5
 50
186.786735
 51
232.619908
  0
ARC
  5
CE
  8
LEVEL_1
  6
CONTINUOUS
 62
     7
 10
-0.002772
 20
0.000064
 30
0.0
 40
0.5
 50
186.815828
 51
232.619453
  0
LINE
  5
E2
  8
LEVEL_1
  6
CONTINUOUS
 62
     7
 10
0.189536
 20
0.461603
 30
0.0
 11
0.69092
 21
1.330024
 31
0.0
  0
LINE
  5
E3
  8
LEVEL_1
  6
CONTINUOUS
 62
     7
 10
0.296648
 20
0.400499
 30
0.0
 11
0.797818
 21
1.26855
 31
0.0
  0
ARC
  5
EB
  8
LEVEL_1
  6
CONTINUOUS
 62
     7
 10
-0.002772
 20
0.000064
 30
0.0
 40
0.5
 50
67.380093
 51
113.213225
  0
ARC
  5
EE
  8
LEVEL_1
  6
CONTINUOUS
 62
     7
 10
-0.002772
 20
0.000064
 30
0.0
 40
0.5
 50
127.380093
 51
172.66297
  0
ARC
  5
F4
  8
LEVEL_1
  6
CONTINUOUS
 62
     7
 10
-0.002772
 20
0.000064
 30
0.0
 40
0.5
 50
307.380093
 51
353.213186
  0
ARC
  5
FA
  8
LEVEL_1
  6
CONTINUOUS
 62
     7
 10
-0.002772
 20
0.000064
 30
0.0
 40
0.5
 50
246.786924
 51
293.213233
  0
ARC
  5
FB
  8
LEVEL_1
  6
CONTINUOUS
 62
     7
 10
-0.002772
 20
0.000064
 30
0.0
 40
0.5
 50
246.787066
 51
293.101599
  0
ARC
  5
116
  8
LEVEL_1
  6
CONTINUOUS
 62
     7
 10
-0.002772
 20
0.000064
 30
0.0
 40
1.8025
 50
0.0
 51
359.999994
  0
LINE
  5
11D
  8
LEVEL_1
  6
CONTINUOUS
 62
     7
 10
-1.501608
 20
-0.059023
 30
0.0
 11
-0.499268
 21
-0.059023
 31
0.0
  0
LINE
  5
123
  8
LEVEL_1
  6
CONTINUOUS
 62
     7
 10
0.300778
 20
-0.397249
 30
0.0
 11
0.802162
 21
-1.26567
 31
0.0
  0
LINE
  5
125
  8
LEVEL_1
  6
CONTINUOUS
 62
     7
 10
0.194305
 20
-0.459458
 30
0.0
 11
0.695475
 21
-1.327509
 31
0.0
  0
ARC
  5
12D
  8
LEVEL_1
  6
CONTINUOUS
 62
     7
 10
-0.002772
 20
0.000064
 30
0.0
 40
1.5
 50
62.453984
 51
117.74244
  0
ARC
  5
12E
  8
LEVEL_1
  6
CONTINUOUS
 62
     7
 10
-0.002772
 20
0.000064
 30
0.0
 40
1.5
 50
122.453984
 51
177.546016
  0
ARC
  5
12F
  8
LEVEL_1
  6
CONTINUOUS
 62
     7
 10
-0.002772
 20
0.000064
 30
0.0
 40
1.5
 50
182.257542
 51
237.541546
  0
ARC
  5
132
  8
LEVEL_1
  6
CONTINUOUS
 62
     7
 10
-0.002772
 20
0.000064
 30
0.0
 40
1.5
 50
242.263041
 51
297.742464
  0
ARC
  5
136
  8
LEVEL_1
  6
CONTINUOUS
 62
     7
 10
-0.002772
 20
0.000064
 30
0.0
 40
1.5
 50
302.454014
 51
357.742459
  0
LINE
  5
164
  8
LEVEL_1
  6
CONTINUOUS
 62
     7
 10
-1.501396
 20
0.06429
 30
0.0
 11
-0.498678
 21
0.063917
 31
0.0
  0
LINE
  5
176
  8
LEVEL_1
  6
CONTINUOUS
 62
     7
 10
0.69541
 20
-1.327396
 30
0.0
 11
0.695434
 21
-1.327438
 31
0.0
  0
LINE
  5
55C
  8
LEVEL_1
  6
CONTINUOUS
 62
     7
 10
-0.306322
 20
-0.397249
 30
0.0
 11
-0.807705
 21
-1.26567
 31
0.0
  0
LINE
  5
55F
  8
LEVEL_1
  6
CONTINUOUS
 62
     7
 10
-0.49927
 20
-0.059023
 30
0.0
 11
-1.501607
 21
-0.059023
 31
0.0
  0
LINE
  5
562
  8
LEVEL_1
  6
CONTINUOUS
 62
     7
 10
-0.807705
 20
-1.26567
 30
0.0
 11
-0.306322
 21
-0.397249
 31
0.0
  0
ARC
  5
563
  8
LEVEL_1
  6
CONTINUOUS
 62
     7
 10
-0.002772
 20
0.000064
 30
0.0
 40
0.5
 50
186.786913
 51
232.619911
  0
ARC
  5
564
  8
LEVEL_1
  6
CONTINUOUS
 62
     7
 10
-0.002772
 20
0.000064
 30
0.0
 40
0.5
 50
186.815828
 51
232.619453
  0
LINE
  5
565
  8
LEVEL_1
  6
CONTINUOUS
 62
     7
 10
-1.501607
 20
-0.059023
 30
0.0
 11
-0.499269
 21
-0.059023
 31
0.0
  0
ARC
  5
566
  8
LEVEL_1
  6
CONTINUOUS
 62
     7
 10
-0.002775
 20
0.000062
 30
0.0
 40
1.499996619277082
 50
182.276386
 51
237.546075
  0
ARC
  5
567
  8
LEVEL_1
  6
CONTINUOUS
 62
     7
 10
-0.002772
 20
0.000064
 30
0.0
 40
1.5
 50
182.25756
 51
237.541546
  0
ARC
  5
7B4
  8
LEVEL_1
  6
CONTINUOUS
 62
     7
 10
-0.002772
 20
0.000064
 30
0.0
 40
1.5
 50
2.454003
 51
57.74241
  0
ARC
  5
9B0
  8
LEVEL_1
  6
CONTINUOUS
 62
     7
 10
-0.002772
 20
0.000064
 30
0.0
 40
1.5
 50
242.257588
 51
297.732288
  0
ARC
  5
A13
  8
LEVEL_1
  6
CONTINUOUS
 62
     7
 10
-0.002772
 20
0.000064
 30
0.0
 40
0.5
 50
7.380146
 51
53.213174
  0
POLYLINE
  5
ABE
  8
LEVEL_1
  6
CONTINUOUS
 62
     7
 66
     1
 10
0.0
 20
0.0
 30
0.0
  0
VERTEX
  5
AC4
  8
LEVEL_1
  6
CONTINUOUS
 62
     7
 10
-0.002772
 20
0.000064
 30
0.0
  0
VERTEX
  5
AC5
  8
LEVEL_1
  6
CONTINUOUS
 62
     7
 10
-0.002772
 20
0.000064
 30
0.0
  0
SEQEND
  5
AC3
  8
LEVEL_1
  6
CONTINUOUS
 62
     7
  0
CIRCLE
  5
A78
  8
LEVEL_1
  6
CONTINUOUS
 62
     7
 10
-0.002772
 20
0.000064
 30
0.0
 40
0.140625
  0
ENDSEC
  0
EOF
