  0
SECTION
  2
HEADER
  9
$ACADVER
  1
AC1009
  9
$DWGCODEPAGE
  3
ansi_1252
  9
$INSBASE
 10
0.0
 20
0.0
 30
0.0
  9
$EXTMIN
 10
-1.110236
 20
-1.106299
 30
0.0
  9
$EXTMAX
 10
14.358268
 20
24.751969
 30
0.0
  9
$LIMMIN
 10
-53.639559
 20
-48.440741
  9
$LIMMAX
 10
66.887591
 20
72.08641
  9
$ORTHOMODE
 70
     0
  9
$REGENMODE
 70
     1
  9
$FILLMODE
 70
     1
  9
$QTEXTMODE
 70
     0
  9
$MIRRTEXT
 70
     0
  9
$DRAGMODE
 70
     2
  9
$LTSCALE
 40
1.0
  9
$OSMODE
 70
    37
  9
$ATTMODE
 70
     1
  9
$TEXTSIZE
 40
9.84252
  9
$TRACEWID
 40
0.05
  9
$TEXTSTYLE
  7
STANDARD
  9
$CLAYER
  8
LEVEL_1
  9
$CELTYPE
  6
CONTINUOUS
  9
$CECOLOR
 62
     7
  9
$DIMSCALE
 40
1.0
  9
$DIMASZ
 40
9.84252
  9
$DIMEXO
 40
4.92126
  9
$DIMDLI
 40
0.0
  9
$DIMRND
 40
0.0
  9
$DIMDLE
 40
0.0
  9
$DIMEXE
 40
4.92126
  9
$DIMTP
 40
0.0
  9
$DIMTM
 40
0.0
  9
$DIMTXT
 40
9.84252
  9
$DIMCEN
 40
0.082677
  9
$DIMTSZ
 40
0.0
  9
$DIMTOL
 70
     0
  9
$DIMLIM
 70
     0
  9
$DIMTIH
 70
     0
  9
$DIMTOH
 70
     0
  9
$DIMSE1
 70
     0
  9
$DIMSE2
 70
     0
  9
$DIMTAD
 70
     1
  9
$DIMZIN
 70
    11
  9
$DIMBLK
  1

  9
$DIMASO
 70
     1
  9
$DIMSHO
 70
     1
  9
$DIMPOST
  1

  9
$DIMAPOST
  1

  9
$DIMALT
 70
     0
  9
$DIMALTD
 70
     4
  9
$DIMALTF
 40
0.0254
  9
$DIMLFAC
 40
1.0
  9
$DIMTOFL
 70
     0
  9
$DIMTVP
 40
0.0
  9
$DIMTIX
 70
     0
  9
$DIMSOXD
 70
     0
  9
$DIMSAH
 70
     0
  9
$DIMBLK1
  1

  9
$DIMBLK2
  1

  9
$DIMSTYLE
  2
STANDARD
  9
$DIMCLRD
 70
     0
  9
$DIMCLRE
 70
     0
  9
$DIMCLRT
 70
     0
  9
$DIMTFAC
 40
1.0
  9
$DIMGAP
 40
4.92126
  9
$LUNITS
 70
     2
  9
$LUPREC
 70
     4
  9
$SKETCHINC
 40
0.1
  9
$FILLETRAD
 40
0.0
  9
$AUNITS
 70
     0
  9
$AUPREC
 70
     4
  9
$MENU
  1
.
  9
$ELEVATION
 40
0.0
  9
$PELEVATION
 40
0.0
  9
$THICKNESS
 40
0.0
  9
$LIMCHECK
 70
     0
  9
$CHAMFERA
 40
0.0
  9
$CHAMFERB
 40
0.0
  9
$SKPOLY
 70
     0
  9
$TDCREATE
 40
2455353.859816262
  9
$TDUPDATE
 40
2455353.859816435
  9
$TDINDWG
 40
0.0
  9
$TDUSRTIMER
 40
0.0006630093
  9
$USRTIMER
 70
     1
  9
$ANGBASE
 50
0.0
  9
$ANGDIR
 70
     0
  9
$PDMODE
 70
     0
  9
$PDSIZE
 40
0.0
  9
$PLINEWID
 40
0.0
  9
$COORDS
 70
     1
  9
$SPLFRAME
 70
     0
  9
$SPLINETYPE
 70
     6
  9
$SPLINESEGS
 70
     8
  9
$ATTDIA
 70
     0
  9
$ATTREQ
 70
     1
  9
$HANDLING
 70
     1
  9
$HANDSEED
  5
B21
  9
$SURFTAB1
 70
     6
  9
$SURFTAB2
 70
     6
  9
$SURFTYPE
 70
     6
  9
$SURFU
 70
     6
  9
$SURFV
 70
     6
  9
$UCSNAME
  2

  9
$UCSORG
 10
0.0
 20
0.0
 30
0.0
  9
$UCSXDIR
 10
1.0
 20
0.0
 30
0.0
  9
$UCSYDIR
 10
0.0
 20
1.0
 30
0.0
  9
$PUCSNAME
  2

  9
$PUCSORG
 10
0.0
 20
0.0
 30
0.0
  9
$PUCSXDIR
 10
1.0
 20
0.0
 30
0.0
  9
$PUCSYDIR
 10
0.0
 20
1.0
 30
0.0
  9
$USERI1
 70
     0
  9
$USERI2
 70
     0
  9
$USERI3
 70
     0
  9
$USERI4
 70
     0
  9
$USERI5
 70
     0
  9
$USERR1
 40
0.0
  9
$USERR2
 40
0.0
  9
$USERR3
 40
0.0
  9
$USERR4
 40
0.0
  9
$USERR5
 40
0.0
  9
$WORLDVIEW
 70
     1
  9
$SHADEDGE
 70
     3
  9
$SHADEDIF
 70
    70
  9
$TILEMODE
 70
     1
  9
$MAXACTVP
 70
    64
  9
$PLIMCHECK
 70
     0
  9
$PEXTMIN
 10
1.049744
 20
0.799667
 30
-0.001526
  9
$PEXTMAX
 10
9.450623
 20
7.200577
 30
0.0
  9
$PLIMMIN
 10
-0.25
 20
-0.25
  9
$PLIMMAX
 10
10.75
 20
8.25
  9
$UNITMODE
 70
     0
  9
$VISRETAIN
 70
     1
  9
$PLINEGEN
 70
     0
  9
$PSLTSCALE
 70
     0
  0
ENDSEC
  0
SECTION
  2
TABLES
  0
TABLE
  2
VPORT
 70
     2
  0
VPORT
  2
*ACTIVE
 70
     0
 10
0.0
 20
0.0
 11
1.0
 21
1.0
 12
2.665354
 22
-0.068898
 13
0.0
 23
0.0
 14
3.937008
 24
3.937008
 15
0.055118
 25
0.055118
 16
0.0
 26
0.0
 36
1.0
 17
0.0
 27
0.0
 37
0.0
 40
5.767717
 41
2.173379
 42
50.0
 43
57.677165
 44
-57.677165
 50
0.0
 51
0.0
 71
    16
 72
   100
 73
     1
 74
     2
 75
     0
 76
     1
 77
     0
 78
     1
  0
ENDTAB
  0
TABLE
  2
LTYPE
 70
     1
  0
LTYPE
  2
CONTINUOUS
 70
     0
  3
Solid line
 72
    65
 73
     0
 40
0.0
  0
ENDTAB
  0
TABLE
  2
LAYER
 70
    64
  0
LAYER
  2
0
 70
     0
 62
     7
  6
CONTINUOUS
  0
LAYER
  2
LEVEL_1
 70
     0
 62
     7
  6
CONTINUOUS
  0
LAYER
  2
LEVEL_2
 70
     0
 62
     7
  6
CONTINUOUS
  0
LAYER
  2
LEVEL_3
 70
     0
 62
     7
  6
CONTINUOUS
  0
LAYER
  2
LEVEL_4
 70
     0
 62
     7
  6
CONTINUOUS
  0
LAYER
  2
LEVEL_5
 70
     0
 62
     7
  6
CONTINUOUS
  0
LAYER
  2
LEVEL_6
 70
     0
 62
     7
  6
CONTINUOUS
  0
LAYER
  2
LEVEL_7
 70
     0
 62
     7
  6
CONTINUOUS
  0
LAYER
  2
LEVEL_8
 70
     0
 62
     7
  6
CONTINUOUS
  0
LAYER
  2
LEVEL_9
 70
     0
 62
     7
  6
CONTINUOUS
  0
LAYER
  2
LEVEL_10
 70
     0
 62
     7
  6
CONTINUOUS
  0
LAYER
  2
LEVEL_11
 70
     0
 62
     7
  6
CONTINUOUS
  0
LAYER
  2
LEVEL_12
 70
     0
 62
     7
  6
CONTINUOUS
  0
LAYER
  2
LEVEL_13
 70
     0
 62
     7
  6
CONTINUOUS
  0
LAYER
  2
LEVEL_14
 70
     0
 62
     7
  6
CONTINUOUS
  0
LAYER
  2
LEVEL_15
 70
     0
 62
     7
  6
CONTINUOUS
  0
LAYER
  2
LEVEL_16
 70
     0
 62
     7
  6
CONTINUOUS
  0
LAYER
  2
LEVEL_17
 70
     0
 62
     7
  6
CONTINUOUS
  0
LAYER
  2
LEVEL_18
 70
     0
 62
     7
  6
CONTINUOUS
  0
LAYER
  2
LEVEL_19
 70
     0
 62
     7
  6
CONTINUOUS
  0
LAYER
  2
LEVEL_20
 70
     0
 62
     7
  6
CONTINUOUS
  0
LAYER
  2
LEVEL_21
 70
     0
 62
     7
  6
CONTINUOUS
  0
LAYER
  2
LEVEL_22
 70
     0
 62
     7
  6
CONTINUOUS
  0
LAYER
  2
LEVEL_23
 70
     0
 62
     7
  6
CONTINUOUS
  0
LAYER
  2
LEVEL_24
 70
     0
 62
     7
  6
CONTINUOUS
  0
LAYER
  2
LEVEL_25
 70
     0
 62
     7
  6
CONTINUOUS
  0
LAYER
  2
LEVEL_26
 70
     0
 62
     7
  6
CONTINUOUS
  0
LAYER
  2
LEVEL_27
 70
     0
 62
     7
  6
CONTINUOUS
  0
LAYER
  2
LEVEL_28
 70
     0
 62
     7
  6
CONTINUOUS
  0
LAYER
  2
LEVEL_29
 70
     0
 62
     7
  6
CONTINUOUS
  0
LAYER
  2
LEVEL_30
 70
     0
 62
     7
  6
CONTINUOUS
  0
LAYER
  2
LEVEL_31
 70
     0
 62
     7
  6
CONTINUOUS
  0
LAYER
  2
LEVEL_32
 70
     0
 62
     7
  6
CONTINUOUS
  0
LAYER
  2
LEVEL_33
 70
     0
 62
     7
  6
CONTINUOUS
  0
LAYER
  2
LEVEL_34
 70
     0
 62
     7
  6
CONTINUOUS
  0
LAYER
  2
LEVEL_35
 70
     0
 62
     7
  6
CONTINUOUS
  0
LAYER
  2
LEVEL_36
 70
     0
 62
     7
  6
CONTINUOUS
  0
LAYER
  2
LEVEL_37
 70
     0
 62
     7
  6
CONTINUOUS
  0
LAYER
  2
LEVEL_38
 70
     0
 62
     7
  6
CONTINUOUS
  0
LAYER
  2
LEVEL_39
 70
     0
 62
     7
  6
CONTINUOUS
  0
LAYER
  2
LEVEL_40
 70
     0
 62
     7
  6
CONTINUOUS
  0
LAYER
  2
LEVEL_41
 70
     0
 62
     7
  6
CONTINUOUS
  0
LAYER
  2
LEVEL_42
 70
     0
 62
     7
  6
CONTINUOUS
  0
LAYER
  2
LEVEL_43
 70
     0
 62
     7
  6
CONTINUOUS
  0
LAYER
  2
LEVEL_44
 70
     0
 62
     7
  6
CONTINUOUS
  0
LAYER
  2
LEVEL_45
 70
     0
 62
     7
  6
CONTINUOUS
  0
LAYER
  2
LEVEL_46
 70
     0
 62
     7
  6
CONTINUOUS
  0
LAYER
  2
LEVEL_47
 70
     0
 62
     7
  6
CONTINUOUS
  0
LAYER
  2
LEVEL_48
 70
     0
 62
     7
  6
CONTINUOUS
  0
LAYER
  2
LEVEL_49
 70
     0
 62
     7
  6
CONTINUOUS
  0
LAYER
  2
LEVEL_50
 70
     0
 62
     7
  6
CONTINUOUS
  0
LAYER
  2
LEVEL_51
 70
     0
 62
     7
  6
CONTINUOUS
  0
LAYER
  2
LEVEL_52
 70
     0
 62
     7
  6
CONTINUOUS
  0
LAYER
  2
LEVEL_53
 70
     0
 62
     7
  6
CONTINUOUS
  0
LAYER
  2
LEVEL_54
 70
     0
 62
     7
  6
CONTINUOUS
  0
LAYER
  2
LEVEL_55
 70
     0
 62
     7
  6
CONTINUOUS
  0
LAYER
  2
LEVEL_56
 70
     0
 62
     7
  6
CONTINUOUS
  0
LAYER
  2
LEVEL_57
 70
     0
 62
     7
  6
CONTINUOUS
  0
LAYER
  2
LEVEL_58
 70
     0
 62
     7
  6
CONTINUOUS
  0
LAYER
  2
LEVEL_59
 70
     0
 62
     7
  6
CONTINUOUS
  0
LAYER
  2
LEVEL_60
 70
     0
 62
     7
  6
CONTINUOUS
  0
LAYER
  2
LEVEL_61
 70
     0
 62
     7
  6
CONTINUOUS
  0
LAYER
  2
LEVEL_62
 70
     0
 62
     7
  6
CONTINUOUS
  0
LAYER
  2
LEVEL_63
 70
     0
 62
     7
  6
CONTINUOUS
  0
ENDTAB
  0
TABLE
  2
STYLE
 70
     2
  0
STYLE
  2
STANDARD
 70
     0
 40
0.0
 41
1.0
 50
0.0
 71
     0
 42
9.84252
  3
txt
  4

  0
STYLE
  2
STYLE-STANDARD
 70
     0
 40
0.0
 41
1.0
 50
0.0
 71
     0
 42
0.2
  3
STANDARD.shx
  4

  0
ENDTAB
  0
TABLE
  2
VIEW
 70
     0
  0
ENDTAB
  0
TABLE
  2
UCS
 70
     0
  0
ENDTAB
  0
TABLE
  2
APPID
 70
     7
  0
APPID
  2
ACAD
 70
     0
  0
APPID
  2
ACAD_PSEXT
 70
     0
  0
APPID
  2
AVE_ENTITY_MATERIAL
 70
     0
  0
APPID
  2
AVE_MATERIAL
 70
     0
  0
APPID
  2
AVE_FINISH
 70
     0
  0
APPID
  2
AVE_GLOBAL
 70
     0
  0
APPID
  2
AVE_RENDER
 70
     0
  0
ENDTAB
  0
TABLE
  2
DIMSTYLE
 70
     1
  0
DIMSTYLE
  2
STANDARD
 70
     0
  3

  4

  5

  6

  7

 40
1.0
 41
0.18
 42
0.0625
 43
0.38
 44
0.18
 45
0.0
 46
0.0
 47
0.0
 48
0.0
140
0.18
141
0.09
142
0.0
143
25.4
144
1.0
145
0.0
146
1.0
147
0.09
 71
     0
 72
     0
 73
     1
 74
     1
 75
     0
 76
     0
 77
     0
 78
     0
170
     0
171
     2
172
     0
173
     0
174
     0
175
     0
176
     0
177
     0
178
     0
  0
ENDTAB
  0
ENDSEC
  0
SECTION
  2
BLOCKS
  0
BLOCK
  8
0
  2
$MODEL_SPACE
 70
     0
 10
0.0
 20
0.0
 30
0.0
  3
$MODEL_SPACE
  1

  0
ENDBLK
  5
AF0
  8
0
  0
BLOCK
 67
     1
  8
0
  2
$PAPER_SPACE
 70
     0
 10
0.0
 20
0.0
 30
0.0
  3
$PAPER_SPACE
  1

  0
ENDBLK
  5
AF5
 67
     1
  8
0
  0
BLOCK
  8
0
  2
SC4006
 70
     0
 10
0.0
 20
0.0
 30
0.0
  3
SC4006
  1

  0
POINT
  5
A71
  8
0
  6
BYBLOCK
 62
     0
 10
0.0
 20
0.0
 30
0.0
  0
ENDBLK
  5
B06
  8
0
  0
BLOCK
  8
0
  2
SC2730
 70
     0
 10
0.0
 20
0.0
 30
0.0
  3
SC2730
  1

  0
INSERT
  5
A0E
  8
LEVEL_1
  6
CONTINUOUS
 62
     7
  2
SC4006
 10
0.0
 20
0.0
 30
0.0
  0
ENDBLK
  5
B08
  8
0
  0
BLOCK
  8
0
  2
TERMIN
 70
     0
 10
0.0
 20
0.0
 30
0.0
  3
TERMIN
  1

  0
LINE
  5
A74
  8
LEVEL_1
  6
CONTINUOUS
 62
     7
 10
0.0
 20
0.0
 30
0.0
 11
-1.0
 21
0.0
 31
0.0
  0
LINE
  5
A75
  8
LEVEL_1
  6
CONTINUOUS
 62
     7
 10
0.0
 20
0.0
 30
0.0
 11
-1.0
 21
0.25
 31
0.0
  0
LINE
  5
A76
  8
LEVEL_1
  6
CONTINUOUS
 62
     7
 10
0.0
 20
0.0
 30
0.0
 11
-1.0
 21
-0.25
 31
0.0
  0
ENDBLK
  5
B0A
  8
0
  0
BLOCK
  8
0
  2
AVE_RENDER
 70
     0
 10
0.0
 20
0.0
 30
0.0
  3
AVE_RENDER
  1
AVE_RENDER
  0
ENDBLK
  5
B12
  8
0
  0
ENDSEC
  0
SECTION
  2
ENTITIES
  0
INSERT
  5
B13
  8
0
 62
     1
  2
AVE_RENDER
 10
0.0
 20
0.0
 30
0.0
1001
AVE_RENDER
1002
{
1070
     7
1000
Pref
1070
    50
1070
    20
1070
     1
1070
     0
1000

1070
    10
1070
     1
1070
    10
1040
1.0
1070
     1
1040
0.7
1040
1.0
1040
0.2
1040
2.0
1010
-1.0
1020
-1.0
1030
-1.0
1020
-1.0
1030
-1.0
1040
0.3
1070
    49
1070
     0
1070
     0
1010
1.0
1020
1.0
1030
1.0
1020
1.0
1030
1.0
1040
45.0
1070
     1
1070
     0
1000
WCS
1040
0.0
1070
     0
1040
10.0
1002
}
  0
INSERT
  5
B14
  8
0
 62
     3
  2
AVE_RENDER
 10
0.0
 20
0.0
 30
0.0
1001
AVE_RENDER
1002
{
1070
     0
1000
Full Opt
1070
     0
1070
     1
1070
     1
1070
     1
1070
     0
1070
     0
1070
     0
1070
     1
1070
     1
1040
0.0001
1040
0.0001
1002
}
  0
INSERT
  5
B15
  8
0
 62
     4
  2
AVE_RENDER
 10
0.0
 20
0.0
 30
0.0
1001
AVE_RENDER
1002
{
1070
     0
1000
Quick Opt
1070
     0
1070
     1
1070
     1
1070
     1
1070
     0
1070
     0
1070
     1
1002
}
  0
INSERT
  5
B16
  8
0
 62
     5
  2
AVE_RENDER
 10
0.0
 20
0.0
 30
0.0
1001
AVE_RENDER
1002
{
1070
     1
1000
Scanl Opt
1070
     2
1070
     0
1070
     2
1040
2.0
1040
4.0
1070
     0
1070
     1
1070
     0
1040
0.03
1002
}
  0
INSERT
  5
B17
  8
0
 62
     6
  2
AVE_RENDER
 10
0.0
 20
0.0
 30
0.0
1001
AVE_RENDER
1002
{
1070
     2
1000
Raytr Opt
1070
     2
1070
     0
1070
     2
1040
2.0
1040
4.0
1070
     0
1070
     1
1070
     1
1040
0.03
1070
     3
1040
0.03
1002
}
  0
INSERT
  5
B18
  8
0
 62
     7
  2
AVE_RENDER
 10
0.0
 20
0.0
 30
0.0
1001
AVE_RENDER
1002
{
1070
     0
1000
RFile Opt
1070
     1
1070
   640
1070
   480
1070
 10000
1070
     1
1070
     8
1070
     8
1070
     0
1070
     0
1070
     0
1070
     0
1070
     0
1070
     0
1070
     0
1002
}
  0
INSERT
  5
B19
  8
0
 62
     8
  2
AVE_RENDER
 10
0.0
 20
0.0
 30
0.0
1001
AVE_RENDER
1002
{
1070
     0
1000
Fog Opt
1070
     0
1070
     0
1040
0.0
1040
1.0
1040
0.0
1040
1.0
1010
0.498039
1020
0.498039
1030
0.498039
1020
0.498039
1030
0.498039
1002
}
  0
INSERT
  5
B1A
  8
0
 62
     9
  2
AVE_RENDER
 10
0.0
 20
0.0
 30
0.0
1001
AVE_RENDER
1002
{
1070
     0
1000
BG Opt
1070
     0
1070
     1
1010
0.0
1020
0.0
1030
0.0
1020
0.0
1030
0.0
1010
1.0
1020
0.0
1030
0.0
1020
0.0
1030
0.0
1010
0.0
1020
1.0
1030
0.0
1020
1.0
1030
0.0
1010
0.0
1020
0.0
1030
1.0
1020
0.0
1030
1.0
1040
0.5
1040
0.33
1040
0.0
1000

1070
     1
1000

1070
     0
1070
     1
1040
0.0
1040
0.0
1040
0.0
1040
0.0
1070
     1
1002
}
  0
LINE
  5
AA
  8
LEVEL_1
  6
CONTINUOUS
 62
     7
 10
14.354243
 20
24.748967
 30
0.0
 11
14.35468
 21
24.749724
 31
0.0
  0
CIRCLE
  5
A7C
  8
LEVEL_1
  6
CONTINUOUS
 62
     7
 10
-0.002772
 20
0.000064
 30
0.0
 40
0.09375
  0
CIRCLE
  5
AA6
  8
LEVEL_1
  6
CONTINUOUS
 62
     7
 10
-0.002772
 20
0.000064
 30
0.0
 40
1.105
  0
LINE
  5
AA8
  8
LEVEL_1
  6
CONTINUOUS
 62
     7
 10
-0.046883
 20
0.947788
 30
0.0
 11
-0.047839
 21
0.27768
 31
0.0
  0
ARC
  5
AAA
  8
LEVEL_1
  6
CONTINUOUS
 62
     7
 10
-0.002772
 20
0.000064
 30
0.0
 40
0.09375
 50
119.464204
 51
98.914011
  0
LINE
  5
AAC
  8
LEVEL_1
  6
CONTINUOUS
 62
     7
 10
-0.798627
 20
0.516534
 30
0.0
 11
-0.216796
 21
0.182534
 31
0.0
  0
ARC
  5
AAF
  8
LEVEL_1
  6
CONTINUOUS
 62
     7
 10
-0.002772
 20
0.000064
 30
0.0
 40
0.28125
 50
99.220689
 51
139.5502
  0
ARC
  5
AB0
  8
LEVEL_1
  6
CONTINUOUS
 62
     7
 10
-0.002772
 20
0.000064
 30
0.0
 40
0.94875
 50
92.664836
 51
147.018466
  0
LINE
  5
AC6
  8
LEVEL_1
  6
CONTINUOUS
 62
     7
 10
-0.84558
 20
0.435725
 30
0.0
 11
-0.265728
 21
0.099843
 31
0.0
  0
LINE
  5
AC7
  8
LEVEL_1
  6
CONTINUOUS
 62
     7
 10
-0.847976
 20
-0.430932
 30
0.0
 11
-0.267808
 21
-0.094051
 31
0.0
  0
ARC
  5
AC8
  8
LEVEL_1
  6
CONTINUOUS
 62
     7
 10
-0.002772
 20
0.000064
 30
0.0
 40
0.2812500000000001
 50
159.220689
 51
199.5502
  0
ARC
  5
AC9
  8
LEVEL_1
  6
CONTINUOUS
 62
     7
 10
-0.002772
 20
0.000064
 30
0.0
 40
0.9487500000000003
 50
152.664836
 51
207.018466
  0
LINE
  5
ACA
  8
LEVEL_1
  6
CONTINUOUS
 62
     7
 10
-0.80147
 20
-0.511999
 30
0.0
 11
-0.220661
 21
-0.177773
 31
0.0
  0
LINE
  5
ACB
  8
LEVEL_1
  6
CONTINUOUS
 62
     7
 10
-0.05212
 20
-0.947402
 30
0.0
 11
-0.053783
 21
-0.276521
 31
0.0
  0
ARC
  5
ACC
  8
LEVEL_1
  6
CONTINUOUS
 62
     7
 10
-0.002772
 20
0.000064
 30
0.0
 40
0.2812500000000001
 50
219.220689
 51
259.5502
  0
ARC
  5
ACD
  8
LEVEL_1
  6
CONTINUOUS
 62
     7
 10
-0.002772
 20
0.000064
 30
0.0
 40
0.9487500000000004
 50
212.664836
 51
267.018466
  0
LINE
  5
ACE
  8
LEVEL_1
  6
CONTINUOUS
 62
     7
 10
0.041339
 20
-0.94766
 30
0.0
 11
0.042295
 21
-0.277552
 31
0.0
  0
LINE
  5
ACF
  8
LEVEL_1
  6
CONTINUOUS
 62
     7
 10
0.793083
 20
-0.516406
 30
0.0
 11
0.211252
 21
-0.182406
 31
0.0
  0
ARC
  5
AD0
  8
LEVEL_1
  6
CONTINUOUS
 62
     7
 10
-0.002772
 20
0.000064
 30
0.0
 40
0.2812500000000001
 50
279.220689
 51
319.5502
  0
ARC
  5
AD1
  8
LEVEL_1
  6
CONTINUOUS
 62
     7
 10
-0.002772
 20
0.000064
 30
0.0
 40
0.9487500000000003
 50
272.664836
 51
327.018466
  0
LINE
  5
AD2
  8
LEVEL_1
  6
CONTINUOUS
 62
     7
 10
0.840036
 20
-0.435597
 30
0.0
 11
0.260184
 21
-0.099715
 31
0.0
  0
LINE
  5
AD3
  8
LEVEL_1
  6
CONTINUOUS
 62
     7
 10
0.842432
 20
0.43106
 30
0.0
 11
0.262264
 21
0.094179
 31
0.0
  0
ARC
  5
AD4
  8
LEVEL_1
  6
CONTINUOUS
 62
     7
 10
-0.002772
 20
0.000064
 30
0.0
 40
0.2812500000000001
 50
339.220689
 51
19.5502
  0
ARC
  5
AD5
  8
LEVEL_1
  6
CONTINUOUS
 62
     7
 10
-0.002772
 20
0.000064
 30
0.0
 40
0.9487500000000003
 50
332.664836
 51
27.018466
  0
LINE
  5
AD6
  8
LEVEL_1
  6
CONTINUOUS
 62
     7
 10
0.842432
 20
0.43106
 30
0.0
 11
0.262264
 21
0.094179
 31
0.0
  0
LINE
  5
AD7
  8
LEVEL_1
  6
CONTINUOUS
 62
     7
 10
0.795926
 20
0.512127
 30
0.0
 11
0.215117
 21
0.177901
 31
0.0
  0
LINE
  5
AD8
  8
LEVEL_1
  6
CONTINUOUS
 62
     7
 10
0.046576
 20
0.94753
 30
0.0
 11
0.048239
 21
0.276649
 31
0.0
  0
ARC
  5
AD9
  8
LEVEL_1
  6
CONTINUOUS
 62
     7
 10
-0.002772
 20
0.000064
 30
0.0
 40
0.2812500000000001
 50
39.220689
 51
79.5502
  0
ARC
  5
ADA
  8
LEVEL_1
  6
CONTINUOUS
 62
     7
 10
-0.002772
 20
0.000064
 30
0.0
 40
0.9487500000000004
 50
32.664836
 51
87.018466
  0
ENDSEC
  0
EOF
